Home » Guitar » Kannada tabs » Kodagana Koli Nungittha guitar tabs

Kodagana Koli Nungittha guitar tabs

Guitar tabs for an old Kannada folk song ಕೋಡಗಾನ ಕೊಳಿ ನುಂಗಿತ್ತಾ by an 18th century freethinker Shishunaala Shareefa.

These are tabs for the earlier rendition by C Ashwath 


I personally am not a big fan of the newer rendition by Raghu Dixit. Although his version is quite groovy, it sets a sombre mood for what is meant to be a lively and jovial song.

Here we go...

e -7-77-5-7-5-------------------------    -
B ------------7-5---------------------     \
G ----------------6--4-----4-6--------      \
D ---------------------7-7------------       |
A ------------------------------------       |
E ------------------------------------       |
                                             |_  x2 Repeat
                                             |
e ------------------------------------       |
B -7-77-5----5------------------------       |
G --------6-6--6-4-4------------------       |
D ------------------------------------      /
A ------------------------------------     /
E ------------------------------------    -

e ---5----------------5---------------
B -7---5-5-5p7-7-7--7---5-5-5p7-7-7---
G ------------------------------------
D ------------------------------------
A ------------------------------------
E ------------------------------------

e ---5----------------5---------------
B -7---5-5-5p7-7-7--7---5-5-5p7-7-7---
G ------------------------------------
D ------------------------------------
A ------------------------------------
E ------------------------------------

e -7-77-7-7-5-57-5------5-------------
B -----------------7-7-7--7-5---------
G ----------------------------6-4-----
D --------------------------------7---
A ------------------------------------
E ------------------------------------

e ------------------------------------
B -7-7-7-5----5-----------------------
G ---------6-6--6-4-4-----------------
D ------------------------------------
A ------------------------------------
E ------------------------------------

Article Tags: 

folk music | guitar tabs | Kannada